RT-012 Bolero – Ritmo 1 y sus variaciones

Ritmo 1

Tomando como base una métrica de 4/4. El esquema explica los momentos en los que se tocan las notas o acordes para formar el ritmo. Como notan arriba de los tiempos indica con una “B” si se toca el bajo y con una “O” si es un acorde con los dedos, si fuese un rasgueo indicará una flecha hacia arriba o abajo según sea el caso.

Se tocan los tiempos 1, 3 y 4 con el bajo, el tiempo 2 no se toca y será un silencio, (en este caso se deben de callar las cuerdas). Los acordes se tocan en las “+” entre los tiempos del compás, son 4 en total y deben ser tocados con las puntas de los dedos y no con rasgueos.

Estructura de las notas:

Una vez entendido como funciona el tiempo noten que hay varias formas de cómo encajar las notas para hacer el ritmo, dependiendo de la tonalidad del acorde o incluso de los bajos que se ocupan, por esto es importante conocer las notas del acorde y como están formados.

Para un acorde mayor el acompañamiento puede ser de dos formas:

  • Forma 1: Tablatura en C

Bajo (Raíz) – Acorde – Acorde – Bajo (5ª) – Acorde – Bajo (5ª) – Acorde

[----------0--------0----------0------------0-------------------]

[----------1--------1----------1------------1-------------------]

[----------0--------0----------0------------0-------------------]

[----------2--------2----------2------------2-------------------]

[----3------------------------------------------------------------]

[--------------------------3-----------3-------------------------]

  • Forma 2: Tablatura en C

Bajo (Raíz) – Acorde – Acorde – Bajo (3ª mayor) – Acorde – Bajo (5ª) – Acorde

[----------0--------0----------0------------0-------------------]

[----------1--------1----------1------------1-------------------]

[----------0--------0----------0------------0-------------------]

[----------2--------2----------2------------2-------------------]

[----3------------------------------------------------------------]

[--------------------------0-----------3-------------------------]

Para un acorde menor el acompañamiento puede ser así:

  • Forma 1: Tablatura en Am

Bajo (Raíz) – Acorde – Acorde – Bajo (5ª) – Acorde – Bajo (5ª) – Acorde

[----------0--------0----------0------------0-------------------]

[----------1--------1----------1------------1-------------------]

[----------2--------2----------2------------2-------------------]

[----------2--------2----------2------------2-------------------]

[----0------------------------------------------------------------]

[--------------------------0-----------0-------------------------]

  • Forma 2: Tablatura en Am

Bajo (Raíz) – Acorde – Acorde – Bajo (3ª menor) – Acorde – Bajo (5ª) – Acorde

[----------0--------0----------0------------0-------------------]

[----------1--------1----------1------------1-------------------]

[----------2--------2----------2------------2-------------------]

[----------2--------2----------2------2-----2------------------]

[----0--------------------3--------------------------------------]

[-----------------------------------------------------------------]

Dependiendo del acorde se pueden tocar los bajos en diferentes alturas aunque lo más aconsejable es encontrar las notas en las cuerdas gruesas y tener un poco de criterio a la hora que los bajos secundarios (3ª o 5ª nota del acorde) suenen más graves que la nota tónica o fundamental.

Etiquetas: , , , , , , , , , , , , , , , ,

Otras Clases que podrían interesarte

3 Respuestas a “RT-012 Bolero – Ritmo 1 y sus variaciones”

  1. selena dice:

    Eres genial! tu didáctica es realmente interesante y abordas todos los temas en forma muy completa a pesar de la dificultad de estar dirigiéndote a personas que en su mayoría no saben de música. Admirable. :O

Deja un comentario

Disculpa, debes iniciar sesión para escribir un comentario.

Facebook

Bookshelf 2.0 developed by revood.com